Never In My Wildest Dreams Acoustic Chords

x0
Start Scrollx
Trying a chord without having to shift a page
[T_A_B_INTRO:]
            Fmaj7                           C
e|-------0-----0--0-----0--0-----0-------0-----0--0-----0--0-----0--|
B|--1h3--------1--1-----1--1-----1--1h3--------1--1-----1--1-----1--|
G|-------------2--2-----2--2-----2-------------0--0-----0--0-----0--|
D|-------------3--3-----3--3-----3-------------2--2-----2--2-----2--|
A|-------------x--x--3--x--x-----x----------3-----------------3-----|
E|----------1--x--x-----x--x--1--x-------------x--x--3--x--x-----x--|

            Fmaj7                           G
e|-------0-----0--0-----0--0-----0-------------x--x-----x--x--------|
B|--1h3--------1--1-----1--1-----1--1h3--1--0--0--0-----0--0--------|
G|-------------2--2-----2--2-----2-------------0--0-----0--0--------|
D|-------------3--3-----3--3-----3-------------0--0-----0--0--------|
A|-------------x--x--3--x--x-----x-------------x--x--2--------2-----|
E|----------1--x--x-----x--x--1--x----------3-----------x--x--3-----|

[T_A_B_._A]
            Fmaj7                           C
e|-------0-----0--0-----0--0-----0-------0-----0--0-----0--0-----0--|
B|--1h3--------1--1-----1--1-----1--1h3--------1--1-----1--1-----1--|
G|-------------2--2-----2--2-----2-------------0--0-----0--0-----0--|
D|-------------3--3-----3--3-----3-------------2--2-----2--2-----2--|
A|-------------x--x--3--x--x-----x----------3-----------------3-----|
E|----------1--x--x-----x--x--1--x-------------x--x--3--x--x-----x--|

            Fmaj7                           G
e|-------0-----0--0-----0--0-----0----------0--x--x-----x--x--------|
B|--1h3--------1--1-----1--1-----1--1h3--1-----0--0-----0--0--------|
G|-------------2--2-----2--2-----2-------------0--0-----0--0--------|
D|-------------3--3-----3--3-----3-------------0--0-----0--0--------|
A|-------------x--x--3--x--x-----x-------------x--x--2--------2-----|
E|----------1--x--x-----x--x--1--x----------3-----------x--x--3-----|

[T_A_B_._B]
            Fmaj7                           C
e|-------0-----0--0-----0--0-----0-------0-----0--0-----0--0-----0--|
B|--1h3--------1--1-----1--1-----1--1h3--------1--1-----1--1-----1--|
G|-------------2--2-----2--2-----2-------------0--0-----0--0-----0--|
D|-------------3--3-----3--3-----3-------------2--2-----2--2-----2--|
A|-------------x--x--3--x--x-----x----------3-----------------3-----|
E|----------1--x--x-----x--x--1--x-------------x--x--3--x--x-----x--|

            Fmaj7                           G
e|-------0-----0--0-----0--0-----0----------0--x--x-----x--x--------|
B|--1h3--------1--1-----1--1-----1--1h3--1-----0--0-----0--0--------|
G|-------------2--2-----2--2-----2-------------0--0-----0--0--------|
D|-------------3--3-----3--3-----3-------------0--0-----0--0--------|
A|-------------x--x--3--x--x-----x-------------x--x--2--------2-----|
E|----------1--x--x-----x--x--1--x----------3-----------x--x--3-----|

[T_A_B_OUTRO:]
            Fmaj7                           C
e|-------0-----0--0-----0--0-----0-------0-----0--0-----0--0-----0--|
B|--1h3--------1--1-----1--1-----1--1h3--------1--1-----1--1-----1--|
G|-------------2--2-----2--2-----2-------------0--0-----0--0-----0--|
D|-------------3--3-----3--3-----3-------------2--2-----2--2-----2--|
A|-------------x--x--3--x--x-----x----------3-----------------3-----|
E|----------1--x--x-----x--x--1--x-------------x--x--3--x--x-----x--|

            Fmaj7                         Fmaj7 C
e|-------0-----0--0-----0--0-----0-------0--x---0----|
B|--1h3--------1--1-----1--1-----1--1h3-----1---1----|
G|-------------2--2-----2--2-----2----------2---0----|
D|-------------3--3-----3--3-----3----------3---2----|
A|-------------x--x--3--x--x-----x----------0---3----|
E|----------1--x--x-----x--x--1--x----------x---x----|

[T_A_B_INTRO:]

[Verse 1]
                     Fmaj7
Never in my wildest dreams
                  C
Would I be loving you
                   Fmaj7
Never in my wildest dreams
                   G    G7
Would my dreams come true

                Dm
You're just too good to touch
         Am
I can't discuss it much
       Fmaj7
I get too choked up
                   G
Don't wanna make a scene
                      C
Never In My Wildest Dreams

[T_A_B_._A]

[Verse 2]
                     Fmaj7
Never in my wildest dreams
                  C
Would I roam this land
                      Fmaj7
Sail across the seven seas
               G6 G7
I'm a hard luck man

                   Dm
But I know what my purpose is
                  Am
It's not on some pilgrimage
                Fmaj7
Its wherever my baby is
      G
My love supreme
                     C
Never In My Wildest Dreams

[T_A_B_._B]

[Verse 3]
            Dm
Walk in the cold, cold wind
          Am
Carry my laundry bin
         Fmaj7
Take my tags for a spin
             G
Watch daytime TV

                Dm
You're just too good to touch
             Am
And I can't discuss it much
          Fmaj7
I get too choked up
                  G
Don't wanna make a scene
                     C
Never In My Wildest Dreams

[T_A_B_OUTRO:]
xClose Ad
Download this chord
Add to Favorite
Dua Lipa
New Rules
Sam Smith
Too Good At Goodbyes
J Balvin
Mi Gente

Published : 2017-06-15 11:06:59

Add Video

  • The video contents may contain samples of the tabs, guides or recording of the singer!
  • Videos that are out of-topic will be removed!

Related Chords

  1. Dan Auerbach - Never In My Wildest Dreams
  2. Sarah Reeves - Details
  3. Michael Card - The Promise
  4. Milow - Summer Days
  5. Selena Gomez - Everything Is Not What It Seems
  6. Hillsong Worship - Love So Great
  7. Kim Walker-smith - Glimpse
  8. Hillsong United - Shape Of Your Heart
  9. Hillsong Young & Free - Where You Are Acoustic
  10. Dua Lipa - Dreams
  11. Free - Child
  12. Alvvays - Dreams Tonite UKULELE
  13. An American Tail - Anywhere In Your Dreams
  14. Marty Robins - Lolene
  15. Zhu - Dreams
  16. The Weeknd - Nothing Without You
  17. Weddings Parties Anything - Away Away
  18. Selena Gomez - Birthday
  19. The Avett Brothers - Roses And Sacrifice
  20. Forever Ends Here - Voices
  21. Muse - Panic Station Acoustic
  22. Finneas - Im In Love Without You
  23. Needtobreathe - Count On Me
  24. Louis Berry - Laurie
  25. Anouk - Sacrifice
  26. Ten Tonnes - Love Me To Death
  27. Dr. Dog - Dont Stop Lovin Me Now
  28. Kate Miller-heidke - The Last Day On Earth
  29. Maroon 5 - Harder To Breathe Acoustic
  30. Pink Floyd - Julia Dream
  31. Stella Parton - I Want To Hold You In My Dreams Tonight
  32. Casualties Of Cool - Daddy
  33. Front Porch Step - Worship From A Wretch
  34. Waterloo Revival - What Guy Wouldnt
  35. Kenny Wayne Shepherd Band - Lay It On Down Acoustic
  36. John Legend - Lets Get Lifted
  37. Galantis - Girls On Boys
  38. Teenage Fanclub - Hold On
  39. Angaleena Presley - Dreams Dont Come True
  40. Steven Wilson - Song Of Unborn Acoustic
  41. Papa Roach - American Dreams
  42. London Grammar - Wild Eyed (ver 2)
  43. The Beatles - Tomorrow Never Knows Acoustic
  44. Sabrina Carpenter - A Dream Is A Wish Your Heart Makes So This Is Love
  45. London Grammar - Wild Eyed
  46. Taylor Swift - Ready For It
  47. Blaenavon - Lonely Side
  48. Rod Clements - Meet Me On The Corner
  49. Levitation Room - When The Night Arrives
  50. Sia - Santas Coming For Us

New Update!!

  1. Bible Club by Adam Green
  2. Hard To Be A Girl by Adam Green
  3. Bluebirds by Adam Green
  4. Jessica by Adam Green
  5. Carolina by Adam Green
  6. Keep On Reaching by Noel Gallagher's High Flying Birds
  7. Tui Chunli Jakhan by Arijit Singh
  8. 12 Steps by Japanese Breakfast
  9. Lost Stars by Adam Levine
  10. Wake Up And Cook Up by Quavo
  11. Webbie I Remember by Boosie Badazz
  12. Burden Down by Jennifer Hudson
  13. Intersection by Modern Baseball
  14. Telephone Lovers by David Ramirez
  15. Tonya Harding ACOUSTIC by Sufjan Stevens
  16. Sirens by Rudy Mancuso
  17. Dig by Black Honey
  18. Cretino Che Sei by Diodato
  19. Dont Think About It by Justine Skye
  20. Too Many by Juicy J
  21. The Black And White by The Dreadnoughts
  22. T Shirt Song by Don Broco
  23. Web Weaver by Our Hollow Our Home
  24. Cool With You by Her's
  25. Dont Bother Calling by Moses Sumney
  26. Rhythm Of Your Heart by Marianas Trench
  27. Bojo Simpenan by NDX A.K.A
  28. Bondo Opo Tresno by NDX A.K.A
  29. Aku Ra Nikung by NDX A.K.A
  30. Gemerlap Kota by Slank
  31. Bungaku by Boomerang
  32. Black And Blue by Midnight Ambassador
  33. Bleeding Sun by Aviators
  34. Here He Comes by Joseph Habedank
  35. Perfect by Khalid
  36. Sakit Hati by Fazira Azmi
  37. Separuh Nafas by Dewa 19
  38. Honestly by Lil Peep
  39. Bully Boys by Alan Doyle
  40. Hate The Way I Love You by Loreen
  41. I Wont Remember You by Alli Simpson
  42. Chiaro Di Luna by Jovanotti
  43. Can You See The Red by Dead BY April
  44. Maaf by Jikustik
  45. Seharusnya Kita by Naff
  46. Dosa Apa by Naff
  47. The Feeling by John Lindahl
  48. Tonya Harding by Sufjan Stevens
  49. Problems by Lil Peep
  50. Believe by The Bravery

Author : Qisroh
Edit this post

View : 52 times

About Dan Auerbach

Dan Auerbach songs
Daniel Quine "Dan" Auerbach (born May 14, 1979) is an American musician, singer-songwriter, and record producer, best known as the guitarist and vocalist for the Black Keys, a blues rock band from Akron, Ohio. As a member of the band, Auerbach has recorded and co-produced eight studio albums with his bandmate Patrick Carney. In 2009, Auerbach released a solo album entitled Keep It Hid. Then another in 2017 entitled Waiting on a Song. In addition to winning several Grammy Awards as a member of the Black Keys, Auerbach received the 2013 Grammy Award for Producer of the Year, Non-Classical for co-producing his band's 2011 album, El Camino, and for producing records by Dr. John (Locked Down) and Hacienda.
(By: Wikipedia)