Heavy Hearts Chords

- + x0

Am          Em F                            Am   G
e|-5------3--7-8--7--0----00-8-7-0---00-----5----3---|
B|---------------------------------------------------|
G|---------------------------------------------------|
D|---------------------------------------------------|
A|---------------------------------------------------|
E|---------------------------------------------------|

F C Dm F

e|------------------------------------------------|
B|------------------------------------------------|
G|------------------------------------------------|
D|-------2-5-2------------------------------------|
A|---0-3-------3--0-------------------------------|
E|--3---------------------------------------------|


[Verse]
Am               Em          F
Bright eyes from headlights

And hope to find the place we used to sleep
Am       Em
I will do everything to fix this
F    C Dm F
Swear I can change
Dm
Don't let this fade
Am          Em          F
My trembling lips don't

Hide the hell that's streaming down your face
Am               Em
And you can't do anything to fix this
F C    Dm F
I hear you say too far away
Am                         Em
Tell me it's different and mean what you say
F                              D#m
You won't leave me hanging and you're not afraid

[Chorus]
Am                         F
Don't ask me, don't ask me why
                      G
Why I wait for someone that won't show
Am                         F
Don't ask me, don't ask me how
                            G
How I stay awake when you're fast asleep
    E
In a dream that does not involve me

[Verse]
Am          Em          F
Red eyes and tail lights

And open ended promises we made
Am       Em
I scream we could've fixed this
F C Dm
Ended our pain

Don't drive away
D#m
You know I'll wait

[Chorus]
Am                F
Don't ask me, don't ask me why
                   G
Why I wait for someone that won't show
Am                         F
Don't ask me, don't ask me how
                            G
How I stay awake when you're fast asleep
    E
In a dream that does not involve me

[Bridge]
Am          Em
It's hard to sleep these days
F                        G
Left with a ghost and it won't go away
Am                   Em
It's all that I have left
             F
This wishful thinking
    G
It's hopeless today
    D#m
And that may not change

[Chorus]
Am                         F
Don't ask me, don't ask me why
                      G
Why I wait for someone that won't show
Am                         F
Don't ask me, don't ask me how
                            G
How I stay awake when you're fast asleep
    E                           Am
In a dream that does not involve me

Published : 2017-05-29 00:32:49

Add Video

  • The video contents may contain samples of the tabs, guides or recording of the singer!
  • Videos that are out of-topic will be removed!

Author : avrileno
Edit this post

View : 49 times