Examples Chords

- + x0

Am                         Am/G                      Am/F                      Dm
e|-------------------------|-------------------------|-------------------------|----0--------------------|
B|-------0----1------------|-------0----1------------|-------0----1------------|---------1---3-------1---|
G|-----------------0----2--|-----------------0----2--|-----------------0----2--|-----------------2-------|
D|----2-----2----2----2----|----2-----2----2----2----|----2-----2----2----2----|-0-----0-------0---------|
A|-0-----------------------|-------------------------|-------------------------|-------------------------|
E|-------------------------|-3-----------------------|-1-----------------------|-------------------------|

Am                         Am/G                      Am/F                      E
e|-------------------------|-------------------------|-------------------------|---------------------0---|
B|-------0----1------------|-------0----1------------|-------0----1------------|----------------0--------|
G|-----------------0----2--|-----------------0----2--|-----------------0----2--|------1----2-------------|
D|----2-----2----2----2----|----2-----2----2----2----|----2-----2----2----2----|----2----2----2----2-----|
A|-0-----------------------|-------------------------|-------------------------|-------------------------|
E|-------------------------|-3-----------------------|-1-----------------------|-0-----------------------|


[Verse 1]
Am    Am/G   Am/F       Dm
Lorem ipsum dolor sit amet
Am    Am/G   Am/F       Dm
consectetur adipiscing elit
Am    Am/G   Am/F       Dm
Vestibulum augue dui
Am    Am/G   Am/F       Dm
ultrices non euismod eu
Am    Am/G   Am/F   E
rhoncus ut nulla

[Verse 2]
Am    Am/G   Am/F       Dm
Quisque quis lectus gravida
Am    Am/G   Am/F       Dm
imperdiet ante vitae
Am    Am/G   Am/F       Dm
interdum neque
Am    Am/G   Am/F       Dm
Sed id nisl id eros dictum iaculis
Am    Am/G   Am/F       E
Nulla blandit rutrum tortor


Am          Dm            Am                  E
Vestibulum ante ipsum primis in faucibus orci
Am          Dm            Am                  E
luctus et ultrices posuere cubilia Curae
Am          Dm            Am                  E
Quisque volutpat, magna ac blandit malesuada
Am          Dm             E
lectus mauris ullamcorper nunc
Am          Dm                     E
eu blandit diam ipsum iaculis nulla
Am          Dm         E
Donec ac dapibus tortor
Am          Dm            Am                   E
Nullam eu lacus non orci tristique rhoncus a in sem
Am          Dm                  E
Fusce placerat facilisis fringilla
Am          Dm            Am                  E
Phasellus fermentum lacus vel faucibus suscipit.


[Verse 3]
Am    Am/G   Am/F       Dm
Lorem ipsum dolor sit amet
Am    Am/G   Am/F       Dm
consectetur adipiscing elit
Am    Am/G   Am/F       Dm
Sed rhoncus eu dui vel pulvinar
Am    Am/G   Am/F       Dm
Pellentesque sit amet arcu non
Am    Am/G   Am/F       E
urna consequat tristique


Am          Dm            Am                  E
Vestibulum ante ipsum primis in faucibus orci
Am          Dm            Am                  E
luctus et ultrices posuere cubilia Curae
Am          Dm            Am                  E
Quisque volutpat, magna ac blandit malesuada
Am          Dm             E
lectus mauris ullamcorper nunc
Am          Dm                     E
eu blandit diam ipsum iaculis nulla
Am          Dm         E
Donec ac dapibus tortor
Am          Dm            Am                   E
Nullam eu lacus non orci tristique rhoncus a in sem
Am          Dm                  E
Fusce placerat facilisis fringilla
Am          Dm            Am                  E
Phasellus fermentum lacus vel faucibus suscipit.


[Verse 4]
Am    Am/G   Am/F       Dm
Lorem ipsum dolor sit amet
Am    Am/G   Am/F       Dm
consectetur adipiscing elit
Am    Am/G   Am/F       Dm
Vestibulum augue dui
Am    Am/G   Am/F       Dm
ultrices non euismod eu
Am    Am/G   Am/F   E
rhoncus ut nulla

[Verse 5]
Am    Am/G   Am/F       Dm
Quisque quis lectus gravida
Am    Am/G   Am/F       Dm
imperdiet ante vitae
Am    Am/G   Am/F       Dm
interdum neque
Am    Am/G   Am/F       Dm
Sed id nisl id eros dictum iaculis
Am    Am/G   Am/F       E
Nulla blandit rutrum torto

Published : 2017-05-26 09:51:16

Last update : 2017-05-26 16:40:11

Add Video

  • The video contents may contain samples of the tabs, guides or recording of the singer!
  • Videos that are out of-topic will be removed!

Author : Admin
Edit this post

Rating: 4.7/5 of 3 Votes
View : 274 times